Tuesday, January 17, 2012

Dara Pujaan by L. Ramlie Chords and Tab

Saje bila ada masa lapang, buat kali pertama aku cuba buat tab atau guitar tablature untuk lagu Dara Pujaan oleh L. Ramlie. Lagu ni x susah dan ada byk repeatition. Aku buat tab ni sebab aku tau memang susah nak jumpa kat internet. Note2 ni adalah aku cari sendiri by ear and heart of myself. Komen okeh!  

Dara Pujaan by L. Ramlie Chords and Tab

 
INTRO

E--------------------------------------
A--------------------------------------
D-----------------------------9-7------
G---7-7-7-6-6-6-7-7-7-6-6-6-7----9/10-7
B--------------------------------------
E--------------------------------------

VERSE

---------------------------------------------
------------5-6-6-5------------------5-5-----
------4-5-7---------7~---------4-5-7-----7-5~
----7----------------------6-7---------------
----7--------------------7-------------------
---------------------------------------------

------------------------
------------------------
----------4-5-4-7-7-5-4~
------6-7---------------
----7-------------------
------------------------

------------------------
---------------8-6-5~---
----------4-5-----------
------6-7---------------
----7-------------------
------------------------

------------------------
------------------------
----------4-5----4------
------6-7------6---7~---
----7-------------------
------------------------

CHORUS


----------5-5-------5-4-7-5---------------
--------5-----8-6~----------5-----5-5/6-5~
------5-----------------------5-7---------
----7-------------------------------------
------------------------------------------
------------------------------------------

------------------
----------5-5-3--
------5---------4~
----7---7---------
------------------
------------------

------------------------
------------------------
----------4-5----4------
------6-7------6---7~---
----7-------------------
------------------------

Tab ni aku x copy dari mana2 dan mmg original aku buat.
Tinggalkan komen okeh :D

3 comments :

khairul said...

terbaek.....tapi ape setting distortion die ek? ade pakai delay kan? aku da puas carik yg sound sebijik ori die xjumpe2 la..

zulkifli abu bakar said...

terbaik... boleh buat tab lagu kenangan mengusik jiwa A Ramli. Tq.

Anonymous said...

tab lagu seruling anak gembala????